• 2 płyty DVD

    Teraz tylko
    40,00 zł

    Ponad 4 godziny, ujęcia z różnych kamer, prawa i lewa ręka
Wykonawcy:   A B C Ć D E F G H I J K L Ł M N O P Q R S Ś T U V W X Y Z Ż 1-9

Czytelnia / Skale

Major scales tabbed out

Data dodania: 15-02-03
Język:  
Autor: gitara.org
Dział: Skale




MAJOR SCALES TABBED OUT


E :| -*--------------|----------------|---------------- ||
B :| -*--------------|----------------|---------------- ||
G :|*-*--------------|--------------2-|---4----5-------*||
D :|*-*-------------2|----3----5------|----------------*||
A :| -*---3----5-----|----------------|---------------- ||
E :| -*--------------|----------------|---------------- ||
C D E F G A B C

G SCALE
E :| --*-------------|----------------|---------------- ||
B :| --*-------------|----------------|---------------- ||
G :|*--*-------------|----------------|----------------*||
D :|*--*-------------|--------------2-|---4----5-------*||
A :| --*------------2|----3----5------|---------------- ||
E :| --*--3----5-----|----------------|---------------- ||
G A B C D E F# G

D SCALE
E :| -*--------------|------------------------------- ||-|
B :| -*--------------|------------------------------- ||-|
G :|*-*--------------|------------4----6----7--------*||-|
D :|*-*-----------4--|--5----7-----------------------*||-|
A :| -*-5----7-------|------------------------------- ||-|
E :| -*--------------|------------------------------- ||-|
E F# G A B C# D

A SCALE MAJOR
E :| --*-------------|----------------|---------------- ||
B :| --*-------------|----------------|---------------- ||
G :|*--*-------------|----------------|----------------*||
D :|*--*-------------|----------------|4-----6----7----*||
A :| --*-------------|4----5-----7----|---------------- ||
E :| --*--5----7-----|----------------|---------------- ||
A B C# D E F# g# A

E MAJOR SCALE
E :| --*-------------|----------------|---------------- ||
B :| --*-------------|----------------|---------------- ||
G :|*--*-------------|--------------6-|---8----9-------*||
D :|*--*------------6|----7----9------|----------------*||
A :| --*--7----9-----|----------------|---------------- ||
E :| --*-------------|----------------|---------------- ||
E F# G # A B C# D# E

B MAJOR SCALE
E :| -*--------------|----------------|---------------- ||
B :| -*--------------|----------------|---------------- ||
G :|*-*--------------|----------------|----------------*||
D :|*-*--------------|-------------6--|--8----9--------*||
A :| -*------------6-|---7----9-------|---------------- ||
E :| -*--7----9------|----------------|---------------- ||
B C# D# E F# G# A# B

F# SCALE
E :| -*---------------|-----------------|------------------ ||
B :| -*---------------|-----------------|------------------ ||
G :|*-*---------------|---------------8-|---10----11-------*||
D :|*-*--------------8|----9----11------|------------------*||
A :| -*---9----11-----|-----------------|------------------ ||
E :| -*---------------|-----------------|------------------ ||
F# G# A # B C# D# E# F#

C# SCALE
E :| --*--------------|-----------------|------------------ ||
B :| --*--------------|-----------------|------------------ ||
G :|*--*--------------|-----------------|------------------*||
D :|*--*--------------|--------------8--|--10----11--------*||
A :| --*------------8-|---9----11-------|------------------ ||
E :| --*-9----11------|-----------------|------------------ ||
C# D# E# F# G# A# B# C#

do góry   powrót   pokaż wszystkie artykuły