Menu

Slide

6 grudnia 2017 - Techniki gry na gitarze
E|--------------|
H|--------------|
G|----2-/(4)----|
D|--------------|
A|--------------|
E|--------------|

Slide – jest to technika polegajaca na zagraniu pierwszego dźwięku i przesunięciu palca dociskając cały czas strunę do gryfu na określony próg. W tym przypadku jest to podjazd na strunie G z drugiego progu na czwarty. Po przesunięciu palca na odpowiedni próg nie uderzamy struny. Drugi dźwięk jest wydobywany bez użycia prawej ręki.

Wersja II:


E|--------------|
H|--------------|
G|----2-/-4-----|
D|--------------|
A|--------------|
E|--------------|

Analogicznie jak w pierwszej wersji tylko po przesunięciu palca na odpowiedniu próg, prawą ręką uderzamy określoną strunę kostką, trzymając palec na danym progu (w tym rzypadku będzie o czwarty próg) Drugi dźwięk jest wydobywany z użyciem prawej ręki.

Wersja III:

E|----------------|
H|----------------|
G|----4-\-(2)-----|
D|----------------|
A|----------------|
E|----------------|

Jest to zjazd z określonego progu na strunie G na dany próg (w tym przypadku z czwartego na drugi). Po wykonaniu zjazdu nie uderzamy kostką struny. Drugi dźwięk jest wydobywany bez użyciem prawej ręki.

Wersja IV:

E|--------------|
H|--------------|
G|----4-\-2-----|
D|--------------|
A|--------------|
E|--------------|

Jest to zjazd z określonego progu na strunie G na dany próg (w tym przypadku z czwartego na drugi). Po wykonaniu zjazdu uderzamy kostką strunę. Drugi dźwięk jest wydobywany z użyciem prawej ręki.

Wersja V:

E|--------------|
H|--------------|
G|------/-6-----|
D|--------------|
A|--------------|
E|--------------|

Przed zagraniem dźwięku należy przeciągnąć palec lewej ręki z nieokreślonego niżej progu na danej strunie na dany próg (w tym przypadku szósty) i wtedy uderzyć prawą ręką daną strunę.

Wersja VI:

E|--------------|
H|--------------|
G|------6-\-----|
D|--------------|
A|--------------|
E|--------------|

Jest to zagranie danego dźwięku a następnie zjechanie do nieokreślonego niżej progu.